ISO-10303-21;
HEADER;
FILE_DESCRIPTION (( 'STEP AP203' ),
    '1' );
FILE_NAME ('QM-CAQWP-20-900-2100-M.STEP',
    '2021-01-05T02:45:34',
    ( '' ),
    ( '' ),
    'SwSTEP 2.0',
    'SolidWorks 2020',
    '' );
FILE_SCHEMA (( 'CONFIG_CONTROL_DESIGN' ));
ENDSEC;

DATA;
#1 = DATE_TIME_ROLE ( 'creation_date' ) ;
#2 = LINE ( 'NONE', #263, #285 ) ;
#3 = CARTESIAN_POINT ( 'NONE',  ( -0.5000000000000006661, 0.000000000000000000, 10.00000000000000000 ) ) ;
#4 = SECURITY_CLASSIFICATION ( '', '', #311 ) ;
#5 = DIRECTION ( 'NONE',  ( 0.000000000000000000, 0.000000000000000000, 1.000000000000000000 ) ) ;
#6 =( LENGTH_UNIT ( ) NAMED_UNIT ( * ) SI_UNIT ( .MILLI., .METRE. ) );
#7 = DIRECTION ( 'NONE',  ( 0.000000000000000000, 0.000000000000000000, 1.000000000000000000 ) ) ;
#8 = ORIENTED_EDGE ( 'NONE', *, *, #62, .F. ) ;
#9 = CIRCLE ( 'NONE', #88, 12.69999999999999929 ) ;
#10 = ORIENTED_EDGE ( 'NONE', *, *, #156, .F. ) ;
#11 = ORIENTED_EDGE ( 'NONE', *, *, #327, .T. ) ;
#12 = PLANE ( 'NONE',  #31 ) ;
#13 = ADVANCED_FACE ( 'NONE', ( #167 ), #297, .F. ) ;
#14 = CARTESIAN_POINT ( 'NONE',  ( 2.999999999999999556, 12.69999999999999929, 0.000000000000000000 ) ) ;
#15 = ORIENTED_EDGE ( 'NONE', *, *, #241, .T. ) ;
#16 = AXIS2_PLACEMENT_3D ( 'NONE', #54, #283, #228 ) ;
#17 = ORIENTED_EDGE ( 'NONE', *, *, #156, .T. ) ;
#18 = APPROVAL_STATUS ( 'not_yet_approved' ) ;
#19 = COORDINATED_UNIVERSAL_TIME_OFFSET ( 8, 0, .AHEAD. ) ;
#20 = CARTESIAN_POINT ( 'NONE',  ( -1.614212418857619014, 1.224646799147353256E-15, -10.00000000000000000 ) ) ;
#21 = DESIGN_CONTEXT ( 'detailed design', #64, 'design' ) ;
#22 = CC_DESIGN_DATE_AND_TIME_ASSIGNMENT ( #75, #174, ( #4 ) ) ;
#23 = AXIS2_PLACEMENT_3D ( 'NONE', #188, #161, #223 ) ;
#24 = CIRCLE ( 'NONE', #328, 10.00000000000000000 ) ;
#25 = APPLICATION_PROTOCOL_DEFINITION ( 'international standard', 'config_control_design', 1994, #259 ) ;
#26 = CARTESIAN_POINT ( 'NONE',  ( -1.614212418857619014, 0.000000000000000000, 0.000000000000000000 ) ) ;
#27 = DATE_AND_TIME ( #72, #45 ) ;
#28 = EDGE_CURVE ( 'NONE', #61, #267, #114, .T. ) ;
#29 = CYLINDRICAL_SURFACE ( 'NONE', #50, 12.69999999999999929 ) ;
#30 = DIRECTION ( 'NONE',  ( -1.000000000000000000, -0.000000000000000000, -0.000000000000000000 ) ) ;
#31 = AXIS2_PLACEMENT_3D ( 'NONE', #165, #249, #111 ) ;
#32 =( NAMED_UNIT ( * ) PLANE_ANGLE_UNIT ( ) SI_UNIT ( $, .RADIAN. ) );
#33 = ORIENTED_EDGE ( 'NONE', *, *, #243, .T. ) ;
#34 = ORIENTED_EDGE ( 'NONE', *, *, #211, .T. ) ;
#35 = CIRCLE ( 'NONE', #207, 12.69999999999999929 ) ;
#36 = VERTEX_POINT ( 'NONE', #282 ) ;
#37 = ADVANCED_FACE ( 'NONE', ( #329 ), #63, .F. ) ;
#38 = VERTEX_POINT ( 'NONE', #90 ) ;
#39 = PERSON ( 'UNSPECIFIED', 'UNSPECIFIED', 'UNSPECIFIED', ('UNSPECIFIED'), ('UNSPECIFIED'), ('UNSPECIFIED') ) ;
#40 = DIRECTION ( 'NONE',  ( -1.000000000000000000, -0.000000000000000000, -0.000000000000000000 ) ) ;
#41 = EDGE_CURVE ( 'NONE', #326, #178, #162, .T. ) ;
#42 = PLANE ( 'NONE',  #194 ) ;
#43 = DIRECTION ( 'NONE',  ( -1.000000000000000000, -0.000000000000000000, -0.000000000000000000 ) ) ;
#44 = CARTESIAN_POINT ( 'NONE',  ( 2.999999999999999112, 0.000000000000000000, 0.000000000000000000 ) ) ;
#45 = LOCAL_TIME ( 10, 45, 34.00000000000000000, #222 ) ;
#46 = EDGE_LOOP ( 'NONE', ( #84, #8, #331, #303 ) ) ;
#47 = ADVANCED_FACE ( 'NONE', ( #216 ), #324, .F. ) ;
#48 = CARTESIAN_POINT ( 'NONE',  ( 3.000000000000000000, 0.000000000000000000, 0.000000000000000000 ) ) ;
#49 = EDGE_CURVE ( 'NONE', #178, #59, #246, .T. ) ;
#50 = AXIS2_PLACEMENT_3D ( 'NONE', #233, #199, #52 ) ;
#51 = APPROVAL_STATUS ( 'not_yet_approved' ) ;
#52 = DIRECTION ( 'NONE',  ( 0.000000000000000000, 0.000000000000000000, 1.000000000000000000 ) ) ;
#53 = UNCERTAINTY_MEASURE_WITH_UNIT (LENGTH_MEASURE( 1.000000000000000082E-05 ), #6, 'distance_accuracy_value', 'NONE');
#54 = CARTESIAN_POINT ( 'NONE',  ( 3.000000000000000000, 0.000000000000000000, 0.000000000000000000 ) ) ;
#55 = AXIS2_PLACEMENT_3D ( 'NONE', #176, #197, #288 ) ;
#56 = CARTESIAN_POINT ( 'NONE',  ( -3.000000000000000000, 1.555301434917138433E-15, -12.69999999999999929 ) ) ;
#57 = ORIENTED_EDGE ( 'NONE', *, *, #230, .T. ) ;
#58 = ORIENTED_EDGE ( 'NONE', *, *, #293, .F. ) ;
#59 = VERTEX_POINT ( 'NONE', #300 ) ;
#60 = CC_DESIGN_APPROVAL ( #137, ( #151 ) ) ;
#61 = VERTEX_POINT ( 'NONE', #245 ) ;
#62 = EDGE_CURVE ( 'NONE', #178, #326, #304, .T. ) ;
#63 = CYLINDRICAL_SURFACE ( 'NONE', #23, 10.00000000000000000 ) ;
#64 = APPLICATION_CONTEXT ( 'configuration controlled 3d designs of mechanical parts and assemblies' ) ;
#65 = CARTESIAN_POINT ( 'NONE',  ( -3.000000000000000000, 0.000000000000000000, 10.00000000000000000 ) ) ;
#66 = CALENDAR_DATE ( 2021, 5, 1 ) ;
#67 = ORIENTED_EDGE ( 'NONE', *, *, #205, .F. ) ;
#68 = AXIS2_PLACEMENT_3D ( 'NONE', #225, #229, #93 ) ;
#69 = LINE ( 'NONE', #234, #257 ) ;
#70 = APPROVAL_DATE_TIME ( #190, #137 ) ;
#71 = FACE_BOUND ( 'NONE', #291, .T. ) ;
#72 = CALENDAR_DATE ( 2021, 5, 1 ) ;
#73 = DIRECTION ( 'NONE',  ( -1.000000000000000000, -0.000000000000000000, -0.000000000000000000 ) ) ;
#74 = APPROVAL_PERSON_ORGANIZATION ( #146, #137, #232 ) ;
#75 = DATE_AND_TIME ( #66, #182 ) ;
#76 = CARTESIAN_POINT ( 'NONE',  ( -3.000000000000000000, 0.000000000000000000, 0.000000000000000000 ) ) ;
#77 = CARTESIAN_POINT ( 'NONE',  ( 3.000000000000000000, 0.000000000000000000, 12.69999999999999929 ) ) ;
#78 = CC_DESIGN_PERSON_AND_ORGANIZATION_ASSIGNMENT ( #121, #115, ( #131 ) ) ;
#79 = ORIENTED_EDGE ( 'NONE', *, *, #41, .F. ) ;
#80 = PRODUCT_DEFINITION_FORMATION_WITH_SPECIFIED_SOURCE ( 'ANY', '', #131, .NOT_KNOWN. ) ;
#81 = CARTESIAN_POINT ( 'NONE',  ( 2.999999999999999112, 1.224646799147353256E-15, -10.00000000000000000 ) ) ;
#82 = VERTEX_POINT ( 'NONE', #65 ) ;
#83 = ORIENTED_EDGE ( 'NONE', *, *, #192, .T. ) ;
#84 = ORIENTED_EDGE ( 'NONE', *, *, #230, .F. ) ;
#85 = LOCAL_TIME ( 10, 45, 34.00000000000000000, #95 ) ;
#86 = ORIENTED_EDGE ( 'NONE', *, *, #205, .T. ) ;
#87 = ORIENTED_EDGE ( 'NONE', *, *, #41, .T. ) ;
#88 = AXIS2_PLACEMENT_3D ( 'NONE', #76, #203, #175 ) ;
#89 = ORIENTED_EDGE ( 'NONE', *, *, #145, .T. ) ;
#90 = CARTESIAN_POINT ( 'NONE',  ( 0.5000000000000013323, 1.224646799147353256E-15, -10.00000000000000000 ) ) ;
#91 = CC_DESIGN_DATE_AND_TIME_ASSIGNMENT ( #27, #1, ( #151 ) ) ;
#92 = PERSON_AND_ORGANIZATION ( #39, #280 ) ;
#93 = DIRECTION ( 'NONE',  ( 1.000000000000000000, 0.000000000000000000, 0.000000000000000000 ) ) ;
#94 = FACE_OUTER_BOUND ( 'NONE', #271, .T. ) ;
#95 = COORDINATED_UNIVERSAL_TIME_OFFSET ( 8, 0, .AHEAD. ) ;
#96 = PERSON_AND_ORGANIZATION ( #39, #280 ) ;
#97 = DIRECTION ( 'NONE',  ( -1.000000000000000000, -0.000000000000000000, -0.000000000000000000 ) ) ;
#98 = CALENDAR_DATE ( 2021, 5, 1 ) ;
#99 = CARTESIAN_POINT ( 'NONE',  ( -0.5000000000000006661, 1.224646799147353256E-15, -10.00000000000000000 ) ) ;
#100 = CIRCLE ( 'NONE', #179, 10.00000000000000000 ) ;
#101 = LINE ( 'NONE', #20, #104 ) ;
#102 = CARTESIAN_POINT ( 'NONE',  ( -3.000000000000000000, 0.000000000000000000, 0.000000000000000000 ) ) ;
#103 = DIRECTION ( 'NONE',  ( -1.000000000000000000, -0.000000000000000000, -0.000000000000000000 ) ) ;
#104 = VECTOR ( 'NONE', #169, 1000.000000000000000 ) ;
#105 = ADVANCED_FACE ( 'NONE', ( #164 ), #12, .F. ) ;
#106 = EDGE_LOOP ( 'NONE', ( #322, #112, #34, #86 ) ) ;
#107 = ORIENTED_EDGE ( 'NONE', *, *, #211, .F. ) ;
#108 = ORIENTED_EDGE ( 'NONE', *, *, #243, .F. ) ;
#109 = AXIS2_PLACEMENT_3D ( 'NONE', #44, #142, #252 ) ;
#110 = ORIENTED_EDGE ( 'NONE', *, *, #49, .F. ) ;
#111 = DIRECTION ( 'NONE',  ( 0.000000000000000000, 0.000000000000000000, -1.000000000000000000 ) ) ;
#112 = ORIENTED_EDGE ( 'NONE', *, *, #293, .T. ) ;
#113 = AXIS2_PLACEMENT_3D ( 'NONE', #292, #289, #317 ) ;
#114 = LINE ( 'NONE', #221, #214 ) ;
#115 = PERSON_AND_ORGANIZATION_ROLE ( 'design_owner' ) ;
#116 = DIRECTION ( 'NONE',  ( -1.000000000000000000, -0.000000000000000000, -0.000000000000000000 ) ) ;
#117 = PERSON_AND_ORGANIZATION ( #39, #280 ) ;
#118 = DIRECTION ( 'NONE',  ( -1.000000000000000000, -0.000000000000000000, -0.000000000000000000 ) ) ;
#119 = COORDINATED_UNIVERSAL_TIME_OFFSET ( 8, 0, .AHEAD. ) ;
#120 = VECTOR ( 'NONE', #40, 1000.000000000000000 ) ;
#121 = PERSON_AND_ORGANIZATION ( #39, #280 ) ;
#122 = FACE_OUTER_BOUND ( 'NONE', #242, .T. ) ;
#123 = DIRECTION ( 'NONE',  ( 0.000000000000000000, 0.000000000000000000, 1.000000000000000000 ) ) ;
#124 = CC_DESIGN_APPROVAL ( #321, ( #4 ) ) ;
#125 = CARTESIAN_POINT ( 'NONE',  ( -3.000000000000000000, 0.000000000000000000, 12.69999999999999929 ) ) ;
#126 = ORIENTED_EDGE ( 'NONE', *, *, #133, .F. ) ;
#127 = ADVANCED_FACE ( 'NONE', ( #218, #325 ), #42, .F. ) ;
#128 = CARTESIAN_POINT ( 'NONE',  ( -1.614212418857619014, 0.000000000000000000, 12.69999999999999929 ) ) ;
#129 = EDGE_LOOP ( 'NONE', ( #183, #58 ) ) ;
#130 = CIRCLE ( 'NONE', #202, 10.00000000000000000 ) ;
#131 = PRODUCT ( 'QM-CAQWP-20-900-2100-M', 'QM-CAQWP-20-900-2100-M', '', ( #307 ) ) ;
#132 = EDGE_LOOP ( 'NONE', ( #296, #87 ) ) ;
#133 = EDGE_CURVE ( 'NONE', #160, #61, #240, .T. ) ;
#134 = AXIS2_PLACEMENT_3D ( 'NONE', #219, #184, #138 ) ;
#135 = CARTESIAN_POINT ( 'NONE',  ( -1.614212418857619014, 0.000000000000000000, 0.000000000000000000 ) ) ;
#136 = EDGE_LOOP ( 'NONE', ( #126, #10 ) ) ;
#137 = APPROVAL ( #196, 'UNSPECIFIED' ) ;
#138 = DIRECTION ( 'NONE',  ( 0.000000000000000000, 0.000000000000000000, 1.000000000000000000 ) ) ;
#139 = PRODUCT_RELATED_PRODUCT_CATEGORY ( 'detail', '', ( #131 ) ) ;
#140 = AXIS2_PLACEMENT_3D ( 'NONE', #26, #97, #236 ) ;
#141 = CARTESIAN_POINT ( 'NONE',  ( 2.999999999999999112, 0.000000000000000000, 0.000000000000000000 ) ) ;
#142 = DIRECTION ( 'NONE',  ( -1.000000000000000000, -0.000000000000000000, -0.000000000000000000 ) ) ;
#143 = APPROVAL_ROLE ( '' ) ;
#144 = CARTESIAN_POINT ( 'NONE',  ( -3.000000000000000000, 0.000000000000000000, 0.000000000000000000 ) ) ;
#145 = EDGE_CURVE ( 'NONE', #206, #180, #312, .T. ) ;
#146 = PERSON_AND_ORGANIZATION ( #39, #280 ) ;
#147 = DIRECTION ( 'NONE',  ( 0.000000000000000000, 0.000000000000000000, 1.000000000000000000 ) ) ;
#148 = CIRCLE ( 'NONE', #244, 10.00000000000000000 ) ;
#149 = CARTESIAN_POINT ( 'NONE',  ( -0.5000000000000006661, 0.000000000000000000, 0.000000000000000000 ) ) ;
#150 = APPROVAL_DATE_TIME ( #253, #321 ) ;
#151 = PRODUCT_DEFINITION ( 'UNKNOWN', '', #80, #21 ) ;
#152 = CARTESIAN_POINT ( 'NONE',  ( 2.999999999999999112, 0.000000000000000000, 10.00000000000000000 ) ) ;
#153 = CARTESIAN_POINT ( 'NONE',  ( -3.000000000000000000, 10.00000000000000000, 0.000000000000000000 ) ) ;
#154 = CC_DESIGN_PERSON_AND_ORGANIZATION_ASSIGNMENT ( #332, #286, ( #4 ) ) ;
#155 = DIRECTION ( 'NONE',  ( 0.000000000000000000, 0.000000000000000000, -1.000000000000000000 ) ) ;
#156 = EDGE_CURVE ( 'NONE', #61, #160, #35, .T. ) ;
#157 = LINE ( 'NONE', #128, #187 ) ;
#158 = ORIENTED_EDGE ( 'NONE', *, *, #217, .T. ) ;
#159 = CLOSED_SHELL ( 'NONE', ( #186, #37, #13, #170, #47, #275, #224, #266, #127, #105 ) ) ;
#160 = VERTEX_POINT ( 'NONE', #77 ) ;
#161 = DIRECTION ( 'NONE',  ( -1.000000000000000000, -0.000000000000000000, -0.000000000000000000 ) ) ;
#162 = CIRCLE ( 'NONE', #109, 10.00000000000000000 ) ;
#163 = AXIS2_PLACEMENT_3D ( 'NONE', #149, #333, #315 ) ;
#164 = FACE_OUTER_BOUND ( 'NONE', #129, .T. ) ;
#165 = CARTESIAN_POINT ( 'NONE',  ( -0.5000000000000006661, 10.00000000000000000, 0.000000000000000000 ) ) ;
#166 = PERSON_AND_ORGANIZATION_ROLE ( 'creator' ) ;
#167 = FACE_OUTER_BOUND ( 'NONE', #185, .T. ) ;
#168 = SHAPE_DEFINITION_REPRESENTATION ( #272, #210 ) ;
#169 = DIRECTION ( 'NONE',  ( -1.000000000000000000, -0.000000000000000000, -0.000000000000000000 ) ) ;
#170 = ADVANCED_FACE ( 'NONE', ( #94 ), #261, .F. ) ;
#171 = DIRECTION ( 'NONE',  ( 1.000000000000000000, 0.000000000000000000, 0.000000000000000000 ) ) ;
#172 = FACE_OUTER_BOUND ( 'NONE', #239, .T. ) ;
#173 = CC_DESIGN_PERSON_AND_ORGANIZATION_ASSIGNMENT ( #251, #166, ( #151 ) ) ;
#174 = DATE_TIME_ROLE ( 'classification_date' ) ;
#175 = DIRECTION ( 'NONE',  ( 0.000000000000000000, 0.000000000000000000, 1.000000000000000000 ) ) ;
#176 = CARTESIAN_POINT ( 'NONE',  ( 0.5000000000000006661, 10.00000000000000000, 0.000000000000000000 ) ) ;
#177 = CYLINDRICAL_SURFACE ( 'NONE', #113, 10.00000000000000000 ) ;
#178 = VERTEX_POINT ( 'NONE', #152 ) ;
#179 = AXIS2_PLACEMENT_3D ( 'NONE', #284, #287, #147 ) ;
#180 = VERTEX_POINT ( 'NONE', #99 ) ;
#181 = ORIENTED_EDGE ( 'NONE', *, *, #278, .F. ) ;
#182 = LOCAL_TIME ( 10, 45, 34.00000000000000000, #119 ) ;
#183 = ORIENTED_EDGE ( 'NONE', *, *, #145, .F. ) ;
#184 = DIRECTION ( 'NONE',  ( -1.000000000000000000, -0.000000000000000000, -0.000000000000000000 ) ) ;
#185 = EDGE_LOOP ( 'NONE', ( #79, #57, #15, #110 ) ) ;
#186 = ADVANCED_FACE ( 'NONE', ( #172 ), #29, .T. ) ;
#187 = VECTOR ( 'NONE', #268, 1000.000000000000000 ) ;
#188 = CARTESIAN_POINT ( 'NONE',  ( -1.614212418857619014, 0.000000000000000000, 0.000000000000000000 ) ) ;
#189 = DIRECTION ( 'NONE',  ( 0.000000000000000000, 0.000000000000000000, 1.000000000000000000 ) ) ;
#190 = DATE_AND_TIME ( #98, #227 ) ;
#191 = ORIENTED_EDGE ( 'NONE', *, *, #192, .F. ) ;
#192 = EDGE_CURVE ( 'NONE', #36, #82, #24, .T. ) ;
#193 = APPROVAL_DATE_TIME ( #260, #314 ) ;
#194 = AXIS2_PLACEMENT_3D ( 'NONE', #14, #247, #335 ) ;
#195 = DIRECTION ( 'NONE',  ( 0.000000000000000000, 0.000000000000000000, 1.000000000000000000 ) ) ;
#196 = APPROVAL_STATUS ( 'not_yet_approved' ) ;
#197 = DIRECTION ( 'NONE',  ( -1.000000000000000000, 0.000000000000000000, -0.000000000000000000 ) ) ;
#198 = APPROVAL_ROLE ( '' ) ;
#199 = DIRECTION ( 'NONE',  ( -1.000000000000000000, -0.000000000000000000, -0.000000000000000000 ) ) ;
#200 = PERSON_AND_ORGANIZATION_ROLE ( 'creator' ) ;
#201 = DIRECTION ( 'NONE',  ( 0.000000000000000000, 0.000000000000000000, -1.000000000000000000 ) ) ;
#202 = AXIS2_PLACEMENT_3D ( 'NONE', #320, #204, #155 ) ;
#203 = DIRECTION ( 'NONE',  ( -1.000000000000000000, -0.000000000000000000, -0.000000000000000000 ) ) ;
#204 = DIRECTION ( 'NONE',  ( 1.000000000000000000, 0.000000000000000000, 0.000000000000000000 ) ) ;
#205 = EDGE_CURVE ( 'NONE', #82, #36, #248, .T. ) ;
#206 = VERTEX_POINT ( 'NONE', #3 ) ;
#207 = AXIS2_PLACEMENT_3D ( 'NONE', #48, #306, #123 ) ;
#208 = MANIFOLD_SOLID_BREP ( 'Ðý×', #159 ) ;
#209 = EDGE_LOOP ( 'NONE', ( #212, #17, #316, #279 ) ) ;
#210 = ADVANCED_BREP_SHAPE_REPRESENTATION ( 'QM-CAQWP-20-900-2100-M', ( #208, #68 ), #220 ) ;
#211 = EDGE_CURVE ( 'NONE', #206, #82, #69, .T. ) ;
#212 = ORIENTED_EDGE ( 'NONE', *, *, #28, .F. ) ;
#213 = CC_DESIGN_PERSON_AND_ORGANIZATION_ASSIGNMENT ( #117, #302, ( #80 ) ) ;
#214 = VECTOR ( 'NONE', #43, 1000.000000000000000 ) ;
#215 = CIRCLE ( 'NONE', #290, 12.69999999999999929 ) ;
#216 = FACE_OUTER_BOUND ( 'NONE', #46, .T. ) ;
#217 = EDGE_CURVE ( 'NONE', #180, #36, #101, .T. ) ;
#218 = FACE_OUTER_BOUND ( 'NONE', #136, .T. ) ;
#219 = CARTESIAN_POINT ( 'NONE',  ( -1.614212418857619014, 0.000000000000000000, 0.000000000000000000 ) ) ;
#220 =( GEOMETRIC_REPRESENTATION_CONTEXT ( 3 ) GLOBAL_UNCERTAINTY_ASSIGNED_CONTEXT ( ( #53 ) ) GLOBAL_UNIT_ASSIGNED_CONTEXT ( ( #6, #32, #237 ) ) REPRESENTATION_CONTEXT ( 'NONE', 'WORKASPACE' ) );
#221 = CARTESIAN_POINT ( 'NONE',  ( -1.614212418857619014, 1.555301434917138433E-15, -12.69999999999999929 ) ) ;
#222 = COORDINATED_UNIVERSAL_TIME_OFFSET ( 8, 0, .AHEAD. ) ;
#223 = DIRECTION ( 'NONE',  ( 0.000000000000000000, 0.000000000000000000, 1.000000000000000000 ) ) ;
#224 = ADVANCED_FACE ( 'NONE', ( #71, #122 ), #231, .F. ) ;
#225 = CARTESIAN_POINT ( 'NONE',  ( 0.000000000000000000, 0.000000000000000000, 0.000000000000000000 ) ) ;
#226 = DIRECTION ( 'NONE',  ( -1.000000000000000000, -0.000000000000000000, -0.000000000000000000 ) ) ;
#227 = LOCAL_TIME ( 10, 45, 34.00000000000000000, #256 ) ;
#228 = DIRECTION ( 'NONE',  ( 0.000000000000000000, 0.000000000000000000, 1.000000000000000000 ) ) ;
#229 = DIRECTION ( 'NONE',  ( 0.000000000000000000, 0.000000000000000000, 1.000000000000000000 ) ) ;
#230 = EDGE_CURVE ( 'NONE', #326, #38, #2, .T. ) ;
#231 = PLANE ( 'NONE',  #299 ) ;
#232 = APPROVAL_ROLE ( '' ) ;
#233 = CARTESIAN_POINT ( 'NONE',  ( -1.614212418857619014, 0.000000000000000000, 0.000000000000000000 ) ) ;
#234 = CARTESIAN_POINT ( 'NONE',  ( -1.614212418857619014, 0.000000000000000000, 10.00000000000000000 ) ) ;
#235 = APPROVAL_PERSON_ORGANIZATION ( #92, #321, #143 ) ;
#236 = DIRECTION ( 'NONE',  ( 0.000000000000000000, 0.000000000000000000, 1.000000000000000000 ) ) ;
#237 =( NAMED_UNIT ( * ) SI_UNIT ( $, .STERADIAN. ) SOLID_ANGLE_UNIT ( ) );
#238 = FACE_OUTER_BOUND ( 'NONE', #106, .T. ) ;
#239 = EDGE_LOOP ( 'NONE', ( #294, #269, #108, #181 ) ) ;
#240 = CIRCLE ( 'NONE', #16, 12.69999999999999929 ) ;
#241 = EDGE_CURVE ( 'NONE', #38, #59, #148, .T. ) ;
#242 = EDGE_LOOP ( 'NONE', ( #33, #11 ) ) ;
#243 = EDGE_CURVE ( 'NONE', #301, #267, #9, .T. ) ;
#244 = AXIS2_PLACEMENT_3D ( 'NONE', #313, #226, #5 ) ;
#245 = CARTESIAN_POINT ( 'NONE',  ( 3.000000000000000000, 1.555301434917138433E-15, -12.69999999999999929 ) ) ;
#246 = LINE ( 'NONE', #274, #120 ) ;
#247 = DIRECTION ( 'NONE',  ( -1.000000000000000000, 0.000000000000000000, -0.000000000000000000 ) ) ;
#248 = CIRCLE ( 'NONE', #334, 10.00000000000000000 ) ;
#249 = DIRECTION ( 'NONE',  ( 1.000000000000000000, 0.000000000000000000, 0.000000000000000000 ) ) ;
#250 = CC_DESIGN_PERSON_AND_ORGANIZATION_ASSIGNMENT ( #305, #200, ( #80 ) ) ;
#251 = PERSON_AND_ORGANIZATION ( #39, #280 ) ;
#252 = DIRECTION ( 'NONE',  ( 0.000000000000000000, 0.000000000000000000, 1.000000000000000000 ) ) ;
#253 = DATE_AND_TIME ( #281, #85 ) ;
#254 = DIRECTION ( 'NONE',  ( -1.000000000000000000, -0.000000000000000000, -0.000000000000000000 ) ) ;
#255 = EDGE_CURVE ( 'NONE', #59, #38, #100, .T. ) ;
#256 = COORDINATED_UNIVERSAL_TIME_OFFSET ( 8, 0, .AHEAD. ) ;
#257 = VECTOR ( 'NONE', #30, 1000.000000000000000 ) ;
#258 = CYLINDRICAL_SURFACE ( 'NONE', #140, 12.69999999999999929 ) ;
#259 = APPLICATION_CONTEXT ( 'configuration controlled 3d designs of mechanical parts and assemblies' ) ;
#260 = DATE_AND_TIME ( #309, #270 ) ;
#261 = PLANE ( 'NONE',  #55 ) ;
#262 = FACE_OUTER_BOUND ( 'NONE', #209, .T. ) ;
#263 = CARTESIAN_POINT ( 'NONE',  ( -1.614212418857619014, 1.224646799147353256E-15, -10.00000000000000000 ) ) ;
#264 = AXIS2_PLACEMENT_3D ( 'NONE', #135, #116, #277 ) ;
#265 = APPROVAL_PERSON_ORGANIZATION ( #96, #314, #198 ) ;
#266 = ADVANCED_FACE ( 'NONE', ( #262 ), #258, .T. ) ;
#267 = VERTEX_POINT ( 'NONE', #56 ) ;
#268 = DIRECTION ( 'NONE',  ( -1.000000000000000000, -0.000000000000000000, -0.000000000000000000 ) ) ;
#269 = ORIENTED_EDGE ( 'NONE', *, *, #28, .T. ) ;
#270 = LOCAL_TIME ( 10, 45, 34.00000000000000000, #19 ) ;
#271 = EDGE_LOOP ( 'NONE', ( #298, #319 ) ) ;
#272 = PRODUCT_DEFINITION_SHAPE ( 'NONE', 'NONE',  #151 ) ;
#273 = EDGE_LOOP ( 'NONE', ( #89, #158, #83, #107 ) ) ;
#274 = CARTESIAN_POINT ( 'NONE',  ( -1.614212418857619014, 0.000000000000000000, 10.00000000000000000 ) ) ;
#275 = ADVANCED_FACE ( 'NONE', ( #238 ), #177, .F. ) ;
#276 = DIRECTION ( 'NONE',  ( -1.000000000000000000, -0.000000000000000000, -0.000000000000000000 ) ) ;
#277 = DIRECTION ( 'NONE',  ( 0.000000000000000000, 0.000000000000000000, 1.000000000000000000 ) ) ;
#278 = EDGE_CURVE ( 'NONE', #160, #301, #157, .T. ) ;
#279 = ORIENTED_EDGE ( 'NONE', *, *, #327, .F. ) ;
#280 = ORGANIZATION ( 'UNSPECIFIED', 'UNSPECIFIED', '' ) ;
#281 = CALENDAR_DATE ( 2021, 5, 1 ) ;
#282 = CARTESIAN_POINT ( 'NONE',  ( -3.000000000000000000, 1.224646799147353256E-15, -10.00000000000000000 ) ) ;
#283 = DIRECTION ( 'NONE',  ( -1.000000000000000000, -0.000000000000000000, -0.000000000000000000 ) ) ;
#284 = CARTESIAN_POINT ( 'NONE',  ( 0.5000000000000013323, 0.000000000000000000, 0.000000000000000000 ) ) ;
#285 = VECTOR ( 'NONE', #118, 1000.000000000000000 ) ;
#286 = PERSON_AND_ORGANIZATION_ROLE ( 'classification_officer' ) ;
#287 = DIRECTION ( 'NONE',  ( -1.000000000000000000, -0.000000000000000000, -0.000000000000000000 ) ) ;
#288 = DIRECTION ( 'NONE',  ( -0.000000000000000000, 0.000000000000000000, 1.000000000000000000 ) ) ;
#289 = DIRECTION ( 'NONE',  ( -1.000000000000000000, -0.000000000000000000, -0.000000000000000000 ) ) ;
#290 = AXIS2_PLACEMENT_3D ( 'NONE', #102, #103, #7 ) ;
#291 = EDGE_LOOP ( 'NONE', ( #67, #191 ) ) ;
#292 = CARTESIAN_POINT ( 'NONE',  ( -1.614212418857619014, 0.000000000000000000, 0.000000000000000000 ) ) ;
#293 = EDGE_CURVE ( 'NONE', #180, #206, #130, .T. ) ;
#294 = ORIENTED_EDGE ( 'NONE', *, *, #133, .T. ) ;
#295 = CC_DESIGN_APPROVAL ( #314, ( #80 ) ) ;
#296 = ORIENTED_EDGE ( 'NONE', *, *, #62, .T. ) ;
#297 = CYLINDRICAL_SURFACE ( 'NONE', #264, 10.00000000000000000 ) ;
#298 = ORIENTED_EDGE ( 'NONE', *, *, #255, .F. ) ;
#299 = AXIS2_PLACEMENT_3D ( 'NONE', #153, #171, #201 ) ;
#300 = CARTESIAN_POINT ( 'NONE',  ( 0.5000000000000013323, 0.000000000000000000, 10.00000000000000000 ) ) ;
#301 = VERTEX_POINT ( 'NONE', #125 ) ;
#302 = PERSON_AND_ORGANIZATION_ROLE ( 'design_supplier' ) ;
#303 = ORIENTED_EDGE ( 'NONE', *, *, #255, .T. ) ;
#304 = CIRCLE ( 'NONE', #318, 10.00000000000000000 ) ;
#305 = PERSON_AND_ORGANIZATION ( #39, #280 ) ;
#306 = DIRECTION ( 'NONE',  ( -1.000000000000000000, -0.000000000000000000, -0.000000000000000000 ) ) ;
#307 = MECHANICAL_CONTEXT ( 'NONE', #259, 'mechanical' ) ;
#308 = DIRECTION ( 'NONE',  ( 0.000000000000000000, 0.000000000000000000, 1.000000000000000000 ) ) ;
#309 = CALENDAR_DATE ( 2021, 5, 1 ) ;
#310 = CARTESIAN_POINT ( 'NONE',  ( -3.000000000000000000, 0.000000000000000000, 0.000000000000000000 ) ) ;
#311 = SECURITY_CLASSIFICATION_LEVEL ( 'unclassified' ) ;
#312 = CIRCLE ( 'NONE', #163, 10.00000000000000000 ) ;
#313 = CARTESIAN_POINT ( 'NONE',  ( 0.5000000000000013323, 0.000000000000000000, 0.000000000000000000 ) ) ;
#314 = APPROVAL ( #18, 'UNSPECIFIED' ) ;
#315 = DIRECTION ( 'NONE',  ( 0.000000000000000000, 0.000000000000000000, -1.000000000000000000 ) ) ;
#316 = ORIENTED_EDGE ( 'NONE', *, *, #278, .T. ) ;
#317 = DIRECTION ( 'NONE',  ( 0.000000000000000000, 0.000000000000000000, 1.000000000000000000 ) ) ;
#318 = AXIS2_PLACEMENT_3D ( 'NONE', #141, #276, #189 ) ;
#319 = ORIENTED_EDGE ( 'NONE', *, *, #241, .F. ) ;
#320 = CARTESIAN_POINT ( 'NONE',  ( -0.5000000000000006661, 0.000000000000000000, 0.000000000000000000 ) ) ;
#321 = APPROVAL ( #51, 'UNSPECIFIED' ) ;
#322 = ORIENTED_EDGE ( 'NONE', *, *, #217, .F. ) ;
#323 = CC_DESIGN_SECURITY_CLASSIFICATION ( #4, ( #80 ) ) ;
#324 = CYLINDRICAL_SURFACE ( 'NONE', #134, 10.00000000000000000 ) ;
#325 = FACE_BOUND ( 'NONE', #132, .T. ) ;
#326 = VERTEX_POINT ( 'NONE', #81 ) ;
#327 = EDGE_CURVE ( 'NONE', #267, #301, #215, .T. ) ;
#328 = AXIS2_PLACEMENT_3D ( 'NONE', #310, #254, #195 ) ;
#329 = FACE_OUTER_BOUND ( 'NONE', #273, .T. ) ;
#330 = APPLICATION_PROTOCOL_DEFINITION ( 'international standard', 'config_control_design', 1994, #64 ) ;
#331 = ORIENTED_EDGE ( 'NONE', *, *, #49, .T. ) ;
#332 = PERSON_AND_ORGANIZATION ( #39, #280 ) ;
#333 = DIRECTION ( 'NONE',  ( 1.000000000000000000, 0.000000000000000000, 0.000000000000000000 ) ) ;
#334 = AXIS2_PLACEMENT_3D ( 'NONE', #144, #73, #308 ) ;
#335 = DIRECTION ( 'NONE',  ( -0.000000000000000000, 0.000000000000000000, 1.000000000000000000 ) ) ;
ENDSEC;
END-ISO-10303-21;
